999
DXF file created from CADvas
0
SECTION
2
HEADER
9
$ACADVER
1
AC1006
9
$INSBASE
10
0.0
20
0.0
30
0.0
9
$EXTMIN
10
0.0
20
0.0
9
$EXTMAX
10
1000.0
20
1000.0
0
ENDSEC
0
SECTION
2
TABLES
0
TABLE
2
LTYPE
70
1
0
LTYPE
2
CONTINUOUS
70
64
3
Solid line
72
65
73
0
40
0.000000
0
ENDTAB
0
TABLE
2
LAYER
70
6
0
LAYER
2
1
70
64
62
7
6
CONTINUOUS
0
LAYER
2
2
70
64
62
7
6
CONTINUOUS
0
ENDTAB
0
TABLE
2
STYLE
70
0
0
ENDTAB
0
ENDSEC
0
SECTION
2
BLOCKS
0
ENDSEC
  0
SECTION
  2
ENTITIES
  0
CIRCLE
  8
0
 10
11.535433
 20
7.047244
 40
0.196850
  0
CIRCLE
  8
0
 10
8.913971
 20
7.595349
 40
0.196850
  0
CIRCLE
  8
0
 10
8.749461
 20
7.487245
 40
0.196850
  0
CIRCLE
  8
0
 10
8.597959
 20
7.361558
 40
0.196850
  0
CIRCLE
  8
0
 10
8.461336
 20
7.219838
 40
0.196850
  0
CIRCLE
  8
0
 10
8.341279
 20
7.063837
 40
0.196850
  0
CIRCLE
  8
0
 10
9.089459
 20
7.684535
 40
0.196850
  0
CIRCLE
  8
0
 10
8.239270
 20
6.895480
 40
0.196850
  0
CIRCLE
  8
0
 10
8.033250
 20
6.141798
 40
0.196850
  0
CIRCLE
  8
0
 10
8.156568
 20
6.716845
 40
0.196850
  0
CIRCLE
  8
0
 10
8.094194
 20
6.530138
 40
0.196850
  0
CIRCLE
  8
0
 10
8.035432
 20
5.944960
 40
0.196850
  0
CIRCLE
  8
0
 10
9.803150
 20
6.062992
 40
1.968504
  0
CIRCLE
  8
0
 10
8.059438
 20
5.749579
 40
0.196850
  0
CIRCLE
  8
0
 10
8.052918
 20
6.337664
 40
0.196850
  0
ENDSEC
  0
EOF